ISO-10303-21;
HEADER;
/* Generated by software containing ST-Developer
 * from STEP Tools, Inc. (www.steptools.com) 
 */

FILE_DESCRIPTION(
/* description */ (''),
/* implementation_level */ '2;1');

FILE_NAME(
/* name */ 'BH125.dxf',
/* time_stamp */ '2012-11-23T15:12:03+08:00',
/* author */ (''),
/* organization */ (''),
/* preprocessor_version */ 'ST-DEVELOPER v9',
/* originating_system */ 'UGS - NX 4.0',
/* authorisation */ '');

FILE_SCHEMA (('CONFIG_CONTROL_DESIGN'));
ENDSEC;

DATA;
#10=SHAPE_REPRESENTATION_RELATIONSHIP('None',
'relationship between Admi1912xinv-None and Admi1912xinv-None',#94,#11);
#11=ADVANCED_BREP_SHAPE_REPRESENTATION('Admi1912xinv-None',(#95),#271);
#12=CC_DESIGN_APPROVAL(#24,(#82));
#13=CC_DESIGN_APPROVAL(#25,(#84));
#14=CC_DESIGN_APPROVAL(#26,(#31));
#15=APPROVAL_PERSON_ORGANIZATION(#69,#24,#18);
#16=APPROVAL_PERSON_ORGANIZATION(#70,#25,#19);
#17=APPROVAL_PERSON_ORGANIZATION(#71,#26,#20);
#18=APPROVAL_ROLE('approver');
#19=APPROVAL_ROLE('approver');
#20=APPROVAL_ROLE('approver');
#21=APPROVAL_DATE_TIME(#39,#24);
#22=APPROVAL_DATE_TIME(#40,#25);
#23=APPROVAL_DATE_TIME(#41,#26);
#24=APPROVAL(#27,' ');
#25=APPROVAL(#28,' ');
#26=APPROVAL(#29,' ');
#27=APPROVAL_STATUS('not_yet_approved');
#28=APPROVAL_STATUS('not_yet_approved');
#29=APPROVAL_STATUS('not_yet_approved');
#30=CC_DESIGN_SECURITY_CLASSIFICATION(#31,(#84));
#31=SECURITY_CLASSIFICATION(' ',' ',#32);
#32=SECURITY_CLASSIFICATION_LEVEL('confidential');
#33=CC_DESIGN_DATE_AND_TIME_ASSIGNMENT(#37,#35,(#82));
#34=CC_DESIGN_DATE_AND_TIME_ASSIGNMENT(#38,#36,(#31));
#35=DATE_TIME_ROLE('creation_date');
#36=DATE_TIME_ROLE('classification_date');
#37=DATE_AND_TIME(#52,#42);
#38=DATE_AND_TIME(#53,#43);
#39=DATE_AND_TIME(#54,#44);
#40=DATE_AND_TIME(#55,#45);
#41=DATE_AND_TIME(#56,#46);
#42=LOCAL_TIME(0,0,0.,#47);
#43=LOCAL_TIME(0,0,0.,#48);
#44=LOCAL_TIME(0,0,0.,#49);
#45=LOCAL_TIME(0,0,0.,#50);
#46=LOCAL_TIME(0,0,0.,#51);
#47=COORDINATED_UNIVERSAL_TIME_OFFSET(0,0,.BEHIND.);
#48=COORDINATED_UNIVERSAL_TIME_OFFSET(0,0,.BEHIND.);
#49=COORDINATED_UNIVERSAL_TIME_OFFSET(0,0,.BEHIND.);
#50=COORDINATED_UNIVERSAL_TIME_OFFSET(0,0,.BEHIND.);
#51=COORDINATED_UNIVERSAL_TIME_OFFSET(0,0,.BEHIND.);
#52=CALENDAR_DATE(0,1,1);
#53=CALENDAR_DATE(0,1,1);
#54=CALENDAR_DATE(0,1,1);
#55=CALENDAR_DATE(0,1,1);
#56=CALENDAR_DATE(0,1,1);
#57=CC_DESIGN_PERSON_AND_ORGANIZATION_ASSIGNMENT(#65,#61,(#82,#84));
#58=CC_DESIGN_PERSON_AND_ORGANIZATION_ASSIGNMENT(#66,#62,(#86));
#59=CC_DESIGN_PERSON_AND_ORGANIZATION_ASSIGNMENT(#67,#63,(#84));
#60=CC_DESIGN_PERSON_AND_ORGANIZATION_ASSIGNMENT(#68,#64,(#31));
#61=PERSON_AND_ORGANIZATION_ROLE('creator');
#62=PERSON_AND_ORGANIZATION_ROLE('design_owner');
#63=PERSON_AND_ORGANIZATION_ROLE('design_supplier');
#64=PERSON_AND_ORGANIZATION_ROLE('classification_officer');
#65=PERSON_AND_ORGANIZATION(#79,#72);
#66=PERSON_AND_ORGANIZATION(#79,#73);
#67=PERSON_AND_ORGANIZATION(#79,#74);
#68=PERSON_AND_ORGANIZATION(#79,#75);
#69=PERSON_AND_ORGANIZATION(#79,#76);
#70=PERSON_AND_ORGANIZATION(#79,#77);
#71=PERSON_AND_ORGANIZATION(#79,#78);
#72=ORGANIZATION(' ',' ',' ');
#73=ORGANIZATION(' ',' ',' ');
#74=ORGANIZATION(' ',' ',' ');
#75=ORGANIZATION(' ',' ',' ');
#76=ORGANIZATION(' ',' ',' ');
#77=ORGANIZATION(' ',' ',' ');
#78=ORGANIZATION(' ',' ',' ');
#79=PERSON(' ',' ',' ',(' '),$,$);
#80=SHAPE_DEFINITION_REPRESENTATION(#81,#94);
#81=PRODUCT_DEFINITION_SHAPE('','',#82);
#82=PRODUCT_DEFINITION(' ','',#84,#83);
#83=DESIGN_CONTEXT('',#93,'design');
#84=PRODUCT_DEFINITION_FORMATION_WITH_SPECIFIED_SOURCE(' ',' ',#86,.NOT_KNOWN.);
#85=PRODUCT_RELATED_PRODUCT_CATEGORY('detail','',(#86));
#86=PRODUCT('Admi1912xinv','Admi1912xinv',' ',(#91));
#87=PRODUCT_CATEGORY_RELATIONSHIP(' ',' ',#89,#90);
#88=PRODUCT_CATEGORY_RELATIONSHIP('','',#90,#85);
#89=PRODUCT_CATEGORY('part',' ');
#90=PRODUCT_CATEGORY(' ','');
#91=MECHANICAL_CONTEXT(' ',#93,'mechanical');
#92=APPLICATION_PROTOCOL_DEFINITION('international standard',
'config_control_design',1994,#93);
#93=APPLICATION_CONTEXT(
'configuration controlled 3D designs of mechanical parts and assemblies
');
#94=SHAPE_REPRESENTATION('Admi1912xinv-None',(#190),#271);
#95=MANIFOLD_SOLID_BREP('',#96);
#96=CLOSED_SHELL('',(#117,#118,#119,#120,#121,#122,#123,#124,#125));
#97=VERTEX_LOOP('',#173);
#98=CONICAL_SURFACE('',#200,6.99999999999991,2.57252375565343);
#99=CONICAL_SURFACE('',#207,0.,59.9999999999996);
#100=TOROIDAL_SURFACE('',#198,9.95612287269726,0.999999999999983);
#101=PLANE('',#196);
#102=PLANE('',#204);
#103=CYLINDRICAL_SURFACE('',#194,9.99999999999996);
#104=CYLINDRICAL_SURFACE('',#206,2.5);
#105=FACE_BOUND('',#134,.T.);
#106=FACE_BOUND('',#135,.T.);
#107=FACE_BOUND('',#137,.T.);
#108=FACE_BOUND('',#138,.T.);
#109=FACE_BOUND('',#139,.T.);
#110=FACE_BOUND('',#141,.T.);
#111=FACE_BOUND('',#142,.T.);
#112=FACE_BOUND('',#143,.T.);
#113=FACE_BOUND('',#145,.T.);
#114=FACE_BOUND('',#146,.T.);
#115=FACE_BOUND('',#147,.T.);
#116=FACE_BOUND('',#97,.T.);
#117=ADVANCED_FACE('',(#128),#126,.T.);
#118=ADVANCED_FACE('',(#105,#106),#103,.T.);
#119=ADVANCED_FACE('',(#129,#107),#101,.F.);
#120=ADVANCED_FACE('',(#108,#109),#100,.F.);
#121=ADVANCED_FACE('',(#130,#110),#98,.T.);
#122=ADVANCED_FACE('',(#111,#112),#127,.T.);
#123=ADVANCED_FACE('',(#131,#113),#102,.T.);
#124=ADVANCED_FACE('',(#114,#115),#104,.F.);
#125=ADVANCED_FACE('',(#132,#116),#99,.F.);
#126=SPHERICAL_SURFACE('',#192,14.25);
#127=SPHERICAL_SURFACE('',#202,16.);
#128=FACE_OUTER_BOUND('',#133,.T.);
#129=FACE_OUTER_BOUND('',#136,.T.);
#130=FACE_OUTER_BOUND('',#140,.T.);
#131=FACE_OUTER_BOUND('',#144,.T.);
#132=FACE_OUTER_BOUND('',#148,.T.);
#133=EDGE_LOOP('',(#149));
#134=EDGE_LOOP('',(#150));
#135=EDGE_LOOP('',(#151));
#136=EDGE_LOOP('',(#152));
#137=EDGE_LOOP('',(#153));
#138=EDGE_LOOP('',(#154));
#139=EDGE_LOOP('',(#155));
#140=EDGE_LOOP('',(#156));
#141=EDGE_LOOP('',(#157));
#142=EDGE_LOOP('',(#158));
#143=EDGE_LOOP('',(#159));
#144=EDGE_LOOP('',(#160));
#145=EDGE_LOOP('',(#161));
#146=EDGE_LOOP('',(#162));
#147=EDGE_LOOP('',(#163));
#148=EDGE_LOOP('',(#164));
#149=ORIENTED_EDGE('',*,*,#174,.T.);
#150=ORIENTED_EDGE('',*,*,#174,.F.);
#151=ORIENTED_EDGE('',*,*,#175,.T.);
#152=ORIENTED_EDGE('',*,*,#175,.F.);
#153=ORIENTED_EDGE('',*,*,#176,.T.);
#154=ORIENTED_EDGE('',*,*,#176,.F.);
#155=ORIENTED_EDGE('',*,*,#177,.T.);
#156=ORIENTED_EDGE('',*,*,#177,.F.);
#157=ORIENTED_EDGE('',*,*,#178,.T.);
#158=ORIENTED_EDGE('',*,*,#179,.T.);
#159=ORIENTED_EDGE('',*,*,#178,.F.);
#160=ORIENTED_EDGE('',*,*,#179,.F.);
#161=ORIENTED_EDGE('',*,*,#180,.T.);
#162=ORIENTED_EDGE('',*,*,#181,.T.);
#163=ORIENTED_EDGE('',*,*,#180,.F.);
#164=ORIENTED_EDGE('',*,*,#181,.F.);
#165=VERTEX_POINT('',#246);
#166=VERTEX_POINT('',#249);
#167=VERTEX_POINT('',#252);
#168=VERTEX_POINT('',#255);
#169=VERTEX_POINT('',#258);
#170=VERTEX_POINT('',#261);
#171=VERTEX_POINT('',#264);
#172=VERTEX_POINT('',#267);
#173=VERTEX_POINT('',#269);
#174=EDGE_CURVE('',#165,#165,#182,.T.);
#175=EDGE_CURVE('',#166,#166,#183,.T.);
#176=EDGE_CURVE('',#167,#167,#184,.T.);
#177=EDGE_CURVE('',#168,#168,#185,.T.);
#178=EDGE_CURVE('',#169,#169,#186,.T.);
#179=EDGE_CURVE('',#170,#170,#187,.T.);
#180=EDGE_CURVE('',#171,#171,#188,.T.);
#181=EDGE_CURVE('',#172,#172,#189,.T.);
#182=CIRCLE('',#191,9.99999999999989);
#183=CIRCLE('',#193,10.);
#184=CIRCLE('',#195,9.91224574534187);
#185=CIRCLE('',#197,8.95713066391048);
#186=CIRCLE('',#199,7.00000000000008);
#187=CIRCLE('',#201,12.4899959967969);
#188=CIRCLE('',#203,2.5);
#189=CIRCLE('',#205,2.5);
#190=AXIS2_PLACEMENT_3D('',#244,#208,#209);
#191=AXIS2_PLACEMENT_3D('',#245,#210,#211);
#192=AXIS2_PLACEMENT_3D('',#247,#212,#213);
#193=AXIS2_PLACEMENT_3D('',#248,#214,#215);
#194=AXIS2_PLACEMENT_3D('',#250,#216,#217);
#195=AXIS2_PLACEMENT_3D('',#251,#218,#219);
#196=AXIS2_PLACEMENT_3D('',#253,#220,#221);
#197=AXIS2_PLACEMENT_3D('',#254,#222,#223);
#198=AXIS2_PLACEMENT_3D('',#256,#224,#225);
#199=AXIS2_PLACEMENT_3D('',#257,#226,#227);
#200=AXIS2_PLACEMENT_3D('',#259,#228,#229);
#201=AXIS2_PLACEMENT_3D('',#260,#230,#231);
#202=AXIS2_PLACEMENT_3D('',#262,#232,#233);
#203=AXIS2_PLACEMENT_3D('',#263,#234,#235);
#204=AXIS2_PLACEMENT_3D('',#265,#236,#237);
#205=AXIS2_PLACEMENT_3D('',#266,#238,#239);
#206=AXIS2_PLACEMENT_3D('',#268,#240,#241);
#207=AXIS2_PLACEMENT_3D('',#270,#242,#243);
#208=DIRECTION('',(0.,0.,1.));
#209=DIRECTION('',(1.,0.,0.));
#210=DIRECTION('',(0.939692620785908,0.342020143325669,0.));
#211=DIRECTION('',(-0.34202014332567,0.939692620785909,0.));
#212=DIRECTION('',(0.939692620785909,0.342020143325669,0.));
#213=DIRECTION('',(-0.342020143325669,0.939692620785909,0.));
#214=DIRECTION('',(0.939692620785908,0.342020143325669,0.));
#215=DIRECTION('',(-0.342020143325668,0.939692620785908,0.));
#216=DIRECTION('',(0.939692620785908,0.342020143325669,0.));
#217=DIRECTION('',(-0.342020143325668,0.93969262078591,0.));
#218=DIRECTION('',(0.939692620785908,0.342020143325669,0.));
#219=DIRECTION('',(-0.342020143325667,0.939692620785908,0.));
#220=DIRECTION('',(0.939692620785908,0.342020143325669,0.));
#221=DIRECTION('',(-0.342020143325669,0.939692620785908,0.));
#222=DIRECTION('',(0.939692620785908,0.342020143325669,0.));
#223=DIRECTION('',(-0.342020143325668,0.939692620785909,0.));
#224=DIRECTION('',(0.939692620785908,0.342020143325669,0.));
#225=DIRECTION('',(-0.342020143325669,0.939692620785908,0.));
#226=DIRECTION('',(0.939692620785908,0.342020143325669,0.));
#227=DIRECTION('',(-0.342020143325667,0.939692620785908,0.));
#228=DIRECTION('',(0.939692620785908,0.342020143325669,0.));
#229=DIRECTION('',(-0.342020143325669,0.939692620785909,0.));
#230=DIRECTION('',(0.,1.,0.));
#231=DIRECTION('',(0.,0.,-1.));
#232=DIRECTION('',(0.,1.,0.));
#233=DIRECTION('',(-1.,0.,0.));
#234=DIRECTION('',(0.,1.,0.));
#235=DIRECTION('',(0.,0.,1.));
#236=DIRECTION('',(0.,-1.,0.));
#237=DIRECTION('',(0.,0.,-1.));
#238=DIRECTION('',(0.,1.,0.));
#239=DIRECTION('',(0.,0.,1.));
#240=DIRECTION('',(0.,1.,0.));
#241=DIRECTION('',(0.,0.,1.));
#242=DIRECTION('',(0.,-1.,0.));
#243=DIRECTION('',(0.,3.20493781063933E-017,-1.));
#244=CARTESIAN_POINT('',(0.,0.,0.));
#245=CARTESIAN_POINT('',(253.610689284398,161.350909193987,0.));
#246=CARTESIAN_POINT('',(250.190487851141,170.747835401846,0.));
#247=CARTESIAN_POINT('',(244.070957752039,157.878730873318,0.));
#248=CARTESIAN_POINT('',(195.349746795672,140.145660307796,0.));
#249=CARTESIAN_POINT('',(191.929545362415,149.542586515655,0.));
#250=CARTESIAN_POINT('',(262.160040702168,164.462618632337,0.));
#251=CARTESIAN_POINT('',(195.349746795672,140.145660307796,0.));
#252=CARTESIAN_POINT('',(191.959559085171,149.46012449011,0.));
#253=CARTESIAN_POINT('',(191.959559085171,149.46012449011,0.));
#254=CARTESIAN_POINT('',(194.453136253605,139.819320758754,0.));
#255=CARTESIAN_POINT('',(191.389617140148,148.236270347046,0.));
#256=CARTESIAN_POINT('',(194.410959159865,139.803969552065,0.));
#257=CARTESIAN_POINT('',(153.519822478968,124.920812954907,0.));
#258=CARTESIAN_POINT('',(151.125681475689,131.498661300409,0.));
#259=CARTESIAN_POINT('',(153.519822478968,124.920812954908,0.));
#260=CARTESIAN_POINT('',(140.,110.,0.));
#261=CARTESIAN_POINT('',(140.,110.,-12.4899959967969));
#262=CARTESIAN_POINT('',(140.,120.,0.));
#263=CARTESIAN_POINT('',(140.,110.,0.));
#264=CARTESIAN_POINT('',(140.,110.,2.5));
#265=CARTESIAN_POINT('',(142.5,110.,-37.5));
#266=CARTESIAN_POINT('',(140.,125.,0.));
#267=CARTESIAN_POINT('',(140.,125.,2.5));
#268=CARTESIAN_POINT('',(140.,141.,0.));
#269=CARTESIAN_POINT('',(140.,126.443375672974,0.));
#270=CARTESIAN_POINT('',(140.,126.443375672974,0.));
#271=(
GEOMETRIC_REPRESENTATION_CONTEXT(3)
GLOBAL_UNCERTAINTY_ASSIGNED_CONTEXT((#272))
GLOBAL_UNIT_ASSIGNED_CONTEXT((#278,#274,#273))
REPRESENTATION_CONTEXT('BH125','TOP_LEVEL_ASSEMBLY_PART')
);
#272=UNCERTAINTY_MEASURE_WITH_UNIT(LENGTH_MEASURE(2.E-005),#278,
'DISTANCE_ACCURACY_VALUE','Maximum Tolerance applied to model');
#273=(
NAMED_UNIT(*)
SI_UNIT($,.STERADIAN.)
SOLID_ANGLE_UNIT()
);
#274=(
CONVERSION_BASED_UNIT('DEGREE',#276)
NAMED_UNIT(#275)
PLANE_ANGLE_UNIT()
);
#275=DIMENSIONAL_EXPONENTS(0.,0.,0.,0.,0.,0.,0.);
#276=PLANE_ANGLE_MEASURE_WITH_UNIT(PLANE_ANGLE_MEASURE(0.0174532925),#277);
#277=(
NAMED_UNIT(*)
PLANE_ANGLE_UNIT()
SI_UNIT($,.RADIAN.)
);
#278=(
LENGTH_UNIT()
NAMED_UNIT(*)
SI_UNIT(.MILLI.,.METRE.)
);
ENDSEC;
END-ISO-10303-21;
